Menunggumu di tempat biasa

menunggumu di tempat biasa #random

Posted in asal, hidupku, sepeda | Tagged , , | 7 Comments

Sweep picking

Sweep picking merupakan salah satu andalan gitaris yang suka bermain speed dalam permainan gitarnya. Di bawah ini ada sedikit tab untuk belajar sweep picking yang saya dapat dari ultimate-guitar.com

Untuk belajar, kuasai dulu sweep picking 3 senar. Selanjutnya 4 senar dan seterusnya. Jangan terburu-buru untuk langsung menguasai semua senar, karena itu malah akan menyulitkan. Lets rock!

   d  d  d  u  u  u
e|--------12-14--------|
b|-----13-------13-----|
g|--14-------------12--|
d|---------------------|
a|---------------------|
e|---------------------|
   d     u  d  d  d        u  d  d  d        u
e|--15p12----------12h15p12----------12h15p12-----|
b|--------13----13----------13----13----------13--|
g|-----------12----------------12-----------------|
d|------------------------------------------------|
a|------------------------------------------------|
e|------------------------------------------------|
   d  d  d  u  d  u  d  d  d  u  d  u  d  d  d  u  d  u  d  u  d  u  d  u
d|-------13-17-13----------13-17-13----------13-17-13----18-17-15-17-15-13-|
a|----15----------15----15----------15----15----------15-------------------|
f|-14----------------14----------------14----------------------------------|
c|-------------------------------------------------------------------------|
g|-------------------------------------------------------------------------|
c|-------------------------------------------------------------------------|
    d     u  u  d  d  d  d        u  u
e|--19p15----------------15h19p15--------|
b|--------17----------17----------17-----|
g|-----------16----16----------------16--|
d|--------------15-----------------------|
a|---------------------------------------|
e|---------------------------------------|

    d  d  d  d        u  u  d  d  d  d        u  u
e|-----------13h17p13----------------13h17p13--------|
b|--------15----------15----------15----------15-----|
g|-----14----------------14----14----------------14--|
d|--13----------------------13-----------------------|
a|---------------------------------------------------|
e|---------------------------------------------------|
    u     u  u  d  d  d  d  u     u  u
e|--18p15----------------15-18p15--------|
b|--------15----------15----------15-----|
g|-----------15----15----------------15--|
d|--------------17-----------------------|
a|---------------------------------------|
d|---------------------------------------|

    d  d  d  d  u     u  u  d  d  d  d  u     u  u
e|-----------13-17p13----------------13-17p13--------|
b|--------15----------15----------15----------15-----|
g|-----14----------------14----14----------------14--|
d|--15----------------------15-----------------------|
a|---------------------------------------------------|
d|---------------------------------------------------|

Keterangan :
d = down stroke
u = up stroke
p = pull off
Posted in gitar, hobi, musik | Tagged , | 2 Comments

Tips bersepeda malam hari

Tulisan ini sebenernya tentang kumpulan pengalamanku waktu sepedaan malem-malem. Sering sepedaan malem soalnya. Sebenernya tips ini bisa juga buat yang sepedaan siang hari sih…Ini ada beberapa peralatan yang menurutku penting untuk di bawa/dipakai :

Lampu

Untuk penerangan supaya pengelihatan kita tidak terganggu dan kendaraan lain tau kalau ada sepeda.

Toolkit (kunci2 sepeda)

Ini perlu, buat jaga-jaga apabila sepeda kita mengalami masalah di jalan. Malem jarang ada bengkel untuk meminjam kunci hehehe

Ban serep

Pengalaman pribadi, pernah bocor di tengah sawah malem hari. Bingung karena sudah tidak ada tambal ban buka. Maka dari itu perlu bawalah ban serep.

Pakaian

Sebaiknya pilih yang nyaman. Jangan yang terlalu panas dan terlalu dingin. Untuk celana, pakailah yang tidak mengganggu rantai. Jangan sampai celana kita tersangkut rantai sepeda. Oiya, bila perlu pakailah helm pengaman.

Sepatu

Kalau saya lebih senang memakai sepatu, karena kaki akan terasa nyaman saat berada di pedal.

Minum

Buat jaga-jaga aja kalau haus di jalan.

Ini sedikit tips dari saya untuk persiapan sebelum bersepeda. Genjot dab!!!

Posted in hidupku, hobi, olahraga, sepeda | Tagged , , , | Leave a comment

Happy New Year

Walaupun sekarang udah tanggal 3 januari, tapi ini masih taun baru. Baru 3 hari og! Selamat tahun baru 2011. Semoga tahun ini bisa lebih baik dari tahun yang lalu. Amien! (doane standar banget) hahaha

Sing keset sinau yo gek disregepi,sing nakal yo gek dadio cah apik…pokoke sing elek-elek ditinggalke wae lah.

Gambare serem yo?oleh neng google dab

Posted in Uncategorized | 3 Comments

Senin, 20 Desember 2010 [1:30am]

Jaga dia untukku

Posted in asal, hidupku | Tagged | Leave a comment